  0
SECTION
  2
HEADER
  9
$ACADVER
  1
AC1018
  9
$HANDSEED
  5
FFFFFF
  9
$EXTMAX
 10
7539182.91999999993
 20
5750425.62999999989
 30
1000000.00
  9
$EXTMIN
 10
7539062.54000000004
 20
5750317.51999999955
 30
0.00
  9
$LIMMIN
 10
7539062.54000000004
 20
5750317.51999999955
  9
$LIMMAX
 10
7539182.91999999993
 20
5750425.62999999989
  9
$DIMASZ
 40
2.5
  9
$DIMGAP
 40
0.625
  9
$INSUNITS
 70
6
  9
$MEASUREMENT
 70
1
  9
$DIMEXO
 40
0.625
  9
$DIMTXT
 40
2.5
  9
$DIMSTYLE
  2
Standard
  9
$PLIMMIN
 10
0.0
 20
0.0
  9
$PLIMMAX
 10
210.0
 20
297.0
  9
$DIMEXE
 40
1.25
  9
$TEXTSIZE
 40
2.5
  9
$TEXTSTYLE
  7
Standard
  9
$LWDISPLAY
290
1
  9
$TDCREATE
 40
45596.523725671
  9
$TDUCREATE
 40
45596.482059005
  9
$TDUPDATE
 40
45596.523725683
  9
$TDUUPDATE
 40
45596.482059016
  9
$TDINDWG
 40
0.0
  9
$TDUSRTIMER
 40
0.0
  9
$USRTIMER
 70
1
  0
ENDSEC
  0
SECTION
  2
TABLES
  0
TABLE
  2
VPORT
  5
1
100
AcDbSymbolTable
 70
1
  0
VPORT
  5
2
100
AcDbSymbolTableRecord
100
AcDbViewportTableRecord
  2
*ACTIVE
 70
0
 10
0.0
 20
0.0
 11
1.0
 21
1.0
 12
7539122.73
 22
5750371.57
 13
0.0
 23
0.0
 14
1.0
 24
1.0
 15
0.0
 25
0.0
 16
0.0
 26
0.0
 36
1.0
 17
0.0
 27
0.0
 37
0.0
 40
108.11
 41
1.11
 42
50.0
 43
0.0
 44
0.0
 50
0.0
 51
0.0
 71
0
 72
100
 73
1
 74
1
 75
0
 76
0
 77
0
 78
0
  0
ENDTAB
  0
TABLE
  2
LTYPE
  5
3
100
AcDbSymbolTable
 70
3
  0
LTYPE
  5
4
100
AcDbSymbolTableRecord
100
AcDbLinetypeTableRecord
  2
ByBlock
 70
0
  3

 72
65
 73
0
 40
0.0
  0
LTYPE
  5
5
100
AcDbSymbolTableRecord
100
AcDbLinetypeTableRecord
  2
ByLayer
 70
0
  3

 72
65
 73
0
 40
0.0
  0
LTYPE
  5
6
100
AcDbSymbolTableRecord
100
AcDbLinetypeTableRecord
  2
CONTINUOUS
 70
0
  3
Solid line
 72
65
 73
0
 40
0.0
  0
LTYPE
  5
7
100
AcDbSymbolTableRecord
100
AcDbLinetypeTableRecord
  2
L_0_03
 70
0
  3
Uzytek_gruntowy
 72
65
 73
2
 40
1.0
 49
0.5
 74
0
 49
-0.5
 74
0
  0
LTYPE
  5
8
100
AcDbSymbolTableRecord
100
AcDbLinetypeTableRecord
  2
L_0_0A
 70
0
  3
Gmina
 72
65
 73
4
 40
2.5
 49
1.5
 74
0
 49
-0.5
 74
0
 49
0.0
 74
0
 49
-0.5
 74
0
  0
ENDTAB
  0
TABLE
  2
LAYER
  5
9
100
AcDbSymbolTable
 70
6
  0
LAYER
  5
A
100
AcDbSymbolTableRecord
100
AcDbLayerTableRecord
  2
0
 70
0
420
0
  6
CONTINUOUS
370
18
390
B
  0
LAYER
  5
C
100
AcDbSymbolTableRecord
100
AcDbLayerTableRecord
  2
budynek_obrys
 70
0
420
255
  6
CONTINUOUS
370
35
390
B
  0
LAYER
  5
D
100
AcDbSymbolTableRecord
100
AcDbLayerTableRecord
  2
Dzialki
 70
0
420
32768
  6
CONTINUOUS
370
18
390
B
  0
LAYER
  5
E
100
AcDbSymbolTableRecord
100
AcDbLayerTableRecord
  2
kontrola
 70
0
420
16711935
  6
L_0_03
370
18
390
B
  0
LAYER
  5
F
100
AcDbSymbolTableRecord
100
AcDbLayerTableRecord
  2
Numery_dzialek
 70
0
420
32768
  6
CONTINUOUS
370
13
390
B
  0
LAYER
  5
10
100
AcDbSymbolTableRecord
100
AcDbLayerTableRecord
  2
Osie
 70
0
420
16711680
  6
L_0_0A
370
18
390
B
  0
ENDTAB
  0
TABLE
  2
STYLE
  5
11
100
AcDbSymbolTable
 70
2
  0
STYLE
  5
12
100
AcDbSymbolTableRecord
100
AcDbTextStyleTableRecord
  2
STANDARD
 70
0
 40
0.0
 41
1.0
 50
0.0
 71
0
  3
simplex.shx
  4

  0
STYLE
  5
13
100
AcDbSymbolTableRecord
100
AcDbTextStyleTableRecord
  2
STANDARD_ITALIC
 70
0
 40
0.0
 41
1.0
 50
15.0
 71
0
  3
simplex.shx
  4

  0
ENDTAB
  0
TABLE
  2
VIEW
  5
14
100
AcDbSymbolTable
 70
0
  0
ENDTAB
  0
TABLE
  2
UCS
  5
15
100
AcDbSymbolTable
 70
0
  0
ENDTAB
  0
TABLE
  2
APPID
  5
16
100
AcDbSymbolTable
 70
1
  0
APPID
  5
17
100
AcDbSymbolTableRecord
100
AcDbRegAppTableRecord
  2
ACAD
 70
0
  0
ENDTAB
  0
TABLE
  2
DIMSTYLE
  5
18
100
AcDbSymbolTable
 70
1
100
AcDbDimStyleTable
  0
DIMSTYLE
105
19
100
AcDbSymbolTableRecord
100
AcDbDimStyleTableRecord
  2
Standard
 70
0
340
12
  0
ENDTAB
  0
TABLE
  2
BLOCK_RECORD
  5
1A
100
AcDbSymbolTable
 70
2
  0
BLOCK_RECORD
  5
1B
100
AcDbSymbolTableRecord
100
AcDbBlockTableRecord
  2
*Model_Space
340
1C
  0
BLOCK_RECORD
  5
1D
100
AcDbSymbolTableRecord
100
AcDbBlockTableRecord
  2
*Paper_Space
340
1E
  0
ENDTAB
  0
ENDSEC
  0
SECTION
  2
BLOCKS
  0
BLOCK
  5
1F
100
AcDbEntity
  8
0
100
AcDbBlockBegin
  2
*Model_Space
 70
0
 10
0.0
 20
0.0
 30
0.0
  3
*Model_Space
  1

  0
ENDBLK
  5
20
100
AcDbEntity
  8
0
100
AcDbBlockEnd
  0
BLOCK
  5
21
100
AcDbEntity
 67
1
  8
0
100
AcDbBlockBegin
  2
*Paper_Space
 70
0
 10
0.0
 20
0.0
 30
0.0
  3
*Paper_Space
  1

  0
ENDBLK
  5
22
100
AcDbEntity
 67
1
  8
0
100
AcDbBlockEnd
  0
ENDSEC
  0
SECTION
  2
ENTITIES
  0
POLYLINE
  5
23
100
AcDbEntity
  8
budynek_obrys
  6
CONTINUOUS
370
35
100
AcDb2dPolyline
 66
1
 70
129
  0
VERTEX
  5
24
100
AcDbEntity
  8
budynek_obrys
100
AcDbVertex
100
AcDb2dVertex
 10
7539110.80530739203
 20
5750368.69135158788
  0
VERTEX
  5
25
100
AcDbEntity
  8
budynek_obrys
100
AcDbVertex
100
AcDb2dVertex
 10
7539107.84256209619
 20
5750360.98098581657
  0
VERTEX
  5
26
100
AcDbEntity
  8
budynek_obrys
100
AcDbVertex
100
AcDb2dVertex
 10
7539104.78081878927
 20
5750362.15747547429
  0
VERTEX
  5
27
100
AcDbEntity
  8
budynek_obrys
100
AcDbVertex
100
AcDb2dVertex
 10
7539103.72628232837
 20
5750359.41310799494
  0
VERTEX
  5
28
100
AcDbEntity
  8
budynek_obrys
100
AcDbVertex
100
AcDb2dVertex
 10
7539093.76628199313
 20
5750363.24028623942
  0
VERTEX
  5
29
100
AcDbEntity
  8
budynek_obrys
100
AcDbVertex
100
AcDb2dVertex
 10
7539096.29143052269
 20
5750369.81183285173
  0
VERTEX
  5
2A
100
AcDbEntity
  8
budynek_obrys
100
AcDbVertex
100
AcDb2dVertex
 10
7539095.12460761704
 20
5750370.26019019075
  0
VERTEX
  5
2B
100
AcDbEntity
  8
budynek_obrys
100
AcDbVertex
100
AcDb2dVertex
 10
7539096.61702483986
 20
5750374.14352301508
  0
SEQEND
  5
2C
100
AcDbEntity
  8
budynek_obrys
  0
POLYLINE
  5
2D
100
AcDbEntity
  8
Dzialki
  6
CONTINUOUS
370
18
100
AcDb2dPolyline
 66
1
 70
128
  0
VERTEX
  5
2E
100
AcDbEntity
  8
Dzialki
100
AcDbVertex
100
AcDb2dVertex
 10
7539092.59925693739
 20
5750363.68897658587
  0
VERTEX
  5
2F
100
AcDbEntity
  8
Dzialki
100
AcDbVertex
100
AcDb2dVertex
 10
7539106.7875699522
 20
5750358.23629157431
  0
SEQEND
  5
30
100
AcDbEntity
  8
Dzialki
  0
POLYLINE
  5
31
100
AcDbEntity
  8
Dzialki
  6
CONTINUOUS
370
18
100
AcDb2dPolyline
 66
1
 70
128
  0
VERTEX
  5
32
100
AcDbEntity
  8
Dzialki
100
AcDbVertex
100
AcDb2dVertex
 10
7539064.85492441896
 20
5750352.43370178249
  0
VERTEX
  5
33
100
AcDbEntity
  8
Dzialki
100
AcDbVertex
100
AcDb2dVertex
 10
7539093.41999500059
 20
5750425.62854387704
  0
SEQEND
  5
34
100
AcDbEntity
  8
Dzialki
  0
POLYLINE
  5
35
100
AcDbEntity
  8
Dzialki
  6
CONTINUOUS
370
18
100
AcDb2dPolyline
 66
1
 70
128
  0
VERTEX
  5
36
100
AcDbEntity
  8
Dzialki
100
AcDbVertex
100
AcDb2dVertex
 10
7539087.4283698108
 20
5750423.1153759947
  0
VERTEX
  5
37
100
AcDbEntity
  8
Dzialki
100
AcDbVertex
100
AcDb2dVertex
 10
7539062.53823481314
 20
5750357.61271059234
  0
SEQEND
  5
38
100
AcDbEntity
  8
Dzialki
  0
POLYLINE
  5
39
100
AcDbEntity
  8
Dzialki
  6
CONTINUOUS
370
18
100
AcDb2dPolyline
 66
1
 70
128
  0
VERTEX
  5
3A
100
AcDbEntity
  8
Dzialki
100
AcDbVertex
100
AcDb2dVertex
 10
7539149.49000000022
 20
5750337.5
  0
VERTEX
  5
3B
100
AcDbEntity
  8
Dzialki
100
AcDbVertex
100
AcDb2dVertex
 10
7539164.53000000026
 20
5750378.83000000007
  0
SEQEND
  5
3C
100
AcDbEntity
  8
Dzialki
  0
POLYLINE
  5
3D
100
AcDbEntity
  8
Dzialki
  6
CONTINUOUS
370
18
100
AcDb2dPolyline
 66
1
 70
128
  0
VERTEX
  5
3E
100
AcDbEntity
  8
Dzialki
100
AcDbVertex
100
AcDb2dVertex
 10
7539164.53000000026
 20
5750378.83000000007
  0
VERTEX
  5
3F
100
AcDbEntity
  8
Dzialki
100
AcDbVertex
100
AcDb2dVertex
 10
7539098.15000000037
 20
5750406.00999999978
  0
SEQEND
  5
40
100
AcDbEntity
  8
Dzialki
  0
POLYLINE
  5
41
100
AcDbEntity
  8
Dzialki
  6
CONTINUOUS
370
18
100
AcDb2dPolyline
 66
1
 70
128
  0
VERTEX
  5
42
100
AcDbEntity
  8
Dzialki
100
AcDbVertex
100
AcDb2dVertex
 10
7539098.15000000037
 20
5750406.00999999978
  0
VERTEX
  5
43
100
AcDbEntity
  8
Dzialki
100
AcDbVertex
100
AcDb2dVertex
 10
7539081.79000000004
 20
5750363.44000000041
  0
SEQEND
  5
44
100
AcDbEntity
  8
Dzialki
  0
POLYLINE
  5
45
100
AcDbEntity
  8
Dzialki
  6
CONTINUOUS
370
18
100
AcDb2dPolyline
 66
1
 70
128
  0
VERTEX
  5
46
100
AcDbEntity
  8
Dzialki
100
AcDbVertex
100
AcDb2dVertex
 10
7539081.79000000004
 20
5750363.44000000041
  0
VERTEX
  5
47
100
AcDbEntity
  8
Dzialki
100
AcDbVertex
100
AcDb2dVertex
 10
7539149.49000000022
 20
5750337.5
  0
SEQEND
  5
48
100
AcDbEntity
  8
Dzialki
  0
POLYLINE
  5
49
100
AcDbEntity
  8
Dzialki
  6
CONTINUOUS
370
18
100
AcDb2dPolyline
 66
1
 70
128
  0
VERTEX
  5
4A
100
AcDbEntity
  8
Dzialki
100
AcDbVertex
100
AcDb2dVertex
 10
7539142.59949084651
 20
5750318.56826886907
  0
VERTEX
  5
4B
100
AcDbEntity
  8
Dzialki
100
AcDbVertex
100
AcDb2dVertex
 10
7539149.49000000022
 20
5750337.5
  0
SEQEND
  5
4C
100
AcDbEntity
  8
Dzialki
  0
POLYLINE
  5
4D
100
AcDbEntity
  8
Dzialki
  6
CONTINUOUS
370
18
100
AcDb2dPolyline
 66
1
 70
128
  0
VERTEX
  5
4E
100
AcDbEntity
  8
Dzialki
100
AcDbVertex
100
AcDb2dVertex
 10
7539081.79000000004
 20
5750363.44000000041
  0
VERTEX
  5
4F
100
AcDbEntity
  8
Dzialki
100
AcDbVertex
100
AcDb2dVertex
 10
7539074.86312832404
 20
5750345.41813906096
  0
SEQEND
  5
50
100
AcDbEntity
  8
Dzialki
  0
POLYLINE
  5
51
100
AcDbEntity
  8
Dzialki
  6
CONTINUOUS
370
18
100
AcDb2dPolyline
 66
1
 70
128
  0
VERTEX
  5
52
100
AcDbEntity
  8
Dzialki
100
AcDbVertex
100
AcDb2dVertex
 10
7539105.55914168526
 20
5750424.75708654895
  0
VERTEX
  5
53
100
AcDbEntity
  8
Dzialki
100
AcDbVertex
100
AcDb2dVertex
 10
7539098.15000000037
 20
5750406.00999999978
  0
SEQEND
  5
54
100
AcDbEntity
  8
Dzialki
  0
POLYLINE
  5
55
100
AcDbEntity
  8
Dzialki
  6
CONTINUOUS
370
18
100
AcDb2dPolyline
 66
1
 70
128
  0
VERTEX
  5
56
100
AcDbEntity
  8
Dzialki
100
AcDbVertex
100
AcDb2dVertex
 10
7539164.53000000026
 20
5750378.83000000007
  0
VERTEX
  5
57
100
AcDbEntity
  8
Dzialki
100
AcDbVertex
100
AcDb2dVertex
 10
7539171.51383292954
 20
5750397.79276922159
  0
SEQEND
  5
58
100
AcDbEntity
  8
Dzialki
  0
POLYLINE
  5
59
100
AcDbEntity
  8
Dzialki
  6
CONTINUOUS
370
18
100
AcDb2dPolyline
 66
1
 70
128
  0
VERTEX
  5
5A
100
AcDbEntity
  8
Dzialki
100
AcDbVertex
100
AcDb2dVertex
 10
7539182.91668960638
 20
5750386.61356939096
  0
VERTEX
  5
5B
100
AcDbEntity
  8
Dzialki
100
AcDbVertex
100
AcDb2dVertex
 10
7539158.3617775226
 20
5750319.61394529138
  0
SEQEND
  5
5C
100
AcDbEntity
  8
Dzialki
  0
POLYLINE
  5
5D
100
AcDbEntity
  8
Dzialki
  6
CONTINUOUS
370
18
100
AcDb2dPolyline
 66
1
 70
128
  0
VERTEX
  5
5E
100
AcDbEntity
  8
Dzialki
100
AcDbVertex
100
AcDb2dVertex
 10
7539150.25828668661
 20
5750317.52124636155
  0
VERTEX
  5
5F
100
AcDbEntity
  8
Dzialki
100
AcDbVertex
100
AcDb2dVertex
 10
7539178.22759609856
 20
5750393.38739770185
  0
SEQEND
  5
60
100
AcDbEntity
  8
Dzialki
  0
POLYLINE
  5
61
100
AcDbEntity
  8
kontrola
  6
ByLayer
370
18
100
AcDb2dPolyline
 66
1
 70
128
  0
VERTEX
  5
62
100
AcDbEntity
  8
kontrola
100
AcDbVertex
100
AcDb2dVertex
 10
7539096.61702483986
 20
5750374.14352301508
  0
VERTEX
  5
63
100
AcDbEntity
  8
kontrola
100
AcDbVertex
100
AcDb2dVertex
 10
7539106.7875699522
 20
5750358.23629157431
  0
SEQEND
  5
64
100
AcDbEntity
  8
kontrola
  0
POLYLINE
  5
65
100
AcDbEntity
  8
kontrola
  6
ByLayer
370
18
100
AcDb2dPolyline
 66
1
 70
128
  0
VERTEX
  5
66
100
AcDbEntity
  8
kontrola
100
AcDbVertex
100
AcDb2dVertex
 10
7539110.80530739203
 20
5750368.69135158788
  0
VERTEX
  5
67
100
AcDbEntity
  8
kontrola
100
AcDbVertex
100
AcDb2dVertex
 10
7539092.59925693739
 20
5750363.68897658587
  0
SEQEND
  5
68
100
AcDbEntity
  8
kontrola
  0
POLYLINE
  5
69
100
AcDbEntity
  8
Osie
  6
ByLayer
370
18
100
AcDb2dPolyline
 66
1
 70
128
  0
VERTEX
  5
6A
100
AcDbEntity
  8
Osie
100
AcDbVertex
100
AcDb2dVertex
 10
7539106.603401714
 20
5750358.64984895661
  0
VERTEX
  5
6B
100
AcDbEntity
  8
Osie
100
AcDbVertex
100
AcDb2dVertex
 10
7539110.39224000089
 20
5750368.50745125208
  0
SEQEND
  5
6C
100
AcDbEntity
  8
Osie
  0
POLYLINE
  5
6D
100
AcDbEntity
  8
Osie
  6
ByLayer
370
18
100
AcDb2dPolyline
 66
1
 70
128
  0
VERTEX
  5
6E
100
AcDbEntity
  8
Osie
100
AcDbVertex
100
AcDb2dVertex
 10
7539110.39224000089
 20
5750368.50745125208
  0
VERTEX
  5
6F
100
AcDbEntity
  8
Osie
100
AcDbVertex
100
AcDb2dVertex
 10
7539096.80067350064
 20
5750373.72989261709
  0
SEQEND
  5
70
100
AcDbEntity
  8
Osie
  0
POLYLINE
  5
71
100
AcDbEntity
  8
Osie
  6
ByLayer
370
18
100
AcDb2dPolyline
 66
1
 70
128
  0
VERTEX
  5
72
100
AcDbEntity
  8
Osie
100
AcDbVertex
100
AcDb2dVertex
 10
7539109.12904174346
 20
5750365.22165149078
  0
VERTEX
  5
73
100
AcDbEntity
  8
Osie
100
AcDbVertex
100
AcDb2dVertex
 10
7539095.53804174159
 20
5750370.44465149008
  0
SEQEND
  5
74
100
AcDbEntity
  8
Osie
  0
POLYLINE
  5
75
100
AcDbEntity
  8
Osie
  6
ByLayer
370
18
100
AcDb2dPolyline
 66
1
 70
128
  0
VERTEX
  5
76
100
AcDbEntity
  8
Osie
100
AcDbVertex
100
AcDb2dVertex
 10
7539108.30368177034
 20
5750363.07445402071
  0
VERTEX
  5
77
100
AcDbEntity
  8
Osie
100
AcDbVertex
100
AcDb2dVertex
 10
7539094.71268177032
 20
5750368.29745401908
  0
SEQEND
  5
78
100
AcDbEntity
  8
Osie
  0
POLYLINE
  5
79
100
AcDbEntity
  8
Osie
  6
ByLayer
370
18
100
AcDb2dPolyline
 66
1
 70
128
  0
VERTEX
  5
7A
100
AcDbEntity
  8
Osie
100
AcDbVertex
100
AcDb2dVertex
 10
7539106.603401714
 20
5750358.64984895661
  0
VERTEX
  5
7B
100
AcDbEntity
  8
Osie
100
AcDbVertex
100
AcDb2dVertex
 10
7539093.01240171399
 20
5750363.87284895685
  0
SEQEND
  5
7C
100
AcDbEntity
  8
Osie
  0
POLYLINE
  5
7D
100
AcDbEntity
  8
Osie
  6
ByLayer
370
18
100
AcDb2dPolyline
 66
1
 70
128
  0
VERTEX
  5
7E
100
AcDbEntity
  8
Osie
100
AcDbVertex
100
AcDb2dVertex
 10
7539103.54199918266
 20
5750359.82587078027
  0
VERTEX
  5
7F
100
AcDbEntity
  8
Osie
100
AcDbVertex
100
AcDb2dVertex
 10
7539107.3299991833
 20
5750369.68387078121
  0
SEQEND
  5
80
100
AcDbEntity
  8
Osie
  0
POLYLINE
  5
81
100
AcDbEntity
  8
Osie
  6
ByLayer
370
18
100
AcDb2dPolyline
 66
1
 70
128
  0
VERTEX
  5
82
100
AcDbEntity
  8
Osie
100
AcDbVertex
100
AcDb2dVertex
 10
7539097.95966306142
 20
5750361.97032617126
  0
VERTEX
  5
83
100
AcDbEntity
  8
Osie
100
AcDbVertex
100
AcDb2dVertex
 10
7539101.74766306207
 20
5750371.82832617033
  0
SEQEND
  5
84
100
AcDbEntity
  8
Osie
  0
POLYLINE
  5
85
100
AcDbEntity
  8
Osie
  6
ByLayer
370
18
100
AcDb2dPolyline
 66
1
 70
128
  0
VERTEX
  5
86
100
AcDbEntity
  8
Osie
100
AcDbVertex
100
AcDb2dVertex
 10
7539094.17923665885
 20
5750363.4230599096
  0
VERTEX
  5
87
100
AcDbEntity
  8
Osie
100
AcDbVertex
100
AcDb2dVertex
 10
7539097.9672366567
 20
5750373.28105990961
  0
SEQEND
  5
88
100
AcDbEntity
  8
Osie
  0
POLYLINE
  5
89
100
AcDbEntity
  8
Osie
  6
ByLayer
370
18
100
AcDb2dPolyline
 66
1
 70
128
  0
VERTEX
  5
8A
100
AcDbEntity
  8
Osie
100
AcDbVertex
100
AcDb2dVertex
 10
7539093.0119185606
 20
5750363.87173580285
  0
VERTEX
  5
8B
100
AcDbEntity
  8
Osie
100
AcDbVertex
100
AcDb2dVertex
 10
7539096.79991856124
 20
5750373.72973580286
  0
SEQEND
  5
8C
100
AcDbEntity
  8
Osie
  0
POLYLINE
  5
8D
100
AcDbEntity
  8
Osie
  6
ByLayer
370
18
100
AcDb2dPolyline
 66
1
 70
128
  0
VERTEX
  5
8E
100
AcDbEntity
  8
Osie
100
AcDbVertex
100
AcDb2dVertex
 10
7539107.65838156268
 20
5750361.39370423928
  0
VERTEX
  5
8F
100
AcDbEntity
  8
Osie
100
AcDbVertex
100
AcDb2dVertex
 10
7539094.06738156266
 20
5750366.61670424044
  0
SEQEND
  5
90
100
AcDbEntity
  8
Osie
  0
TEXT
  5
91
100
AcDbEntity
  8
budynek_obrys
370
5
100
AcDbText
 39
0.05
 10
7539095.61393202748
 20
5750371.68333349936
 40
0.27
  1
-4.160-
 50
-291.00
 41
0.66
  7
STANDARD
 72
0
 11
7539095.36186531279
 21
5750371.78009284567
100
AcDbText
 73
3
  0
TEXT
  5
92
100
AcDbEntity
  8
budynek_obrys
370
5
100
AcDbText
 39
0.05
 10
7539094.90786586888
 20
5750369.95084768627
 40
0.27
  1
-1.250-
 50
-21.00
 41
0.66
  7
STANDARD
 72
0
 11
7539095.0046252152
 21
5750370.20291440096
100
AcDbText
 73
3
  0
TEXT
  5
93
100
AcDbEntity
  8
budynek_obrys
370
5
100
AcDbText
 39
0.05
 10
7539094.76597050577
 20
5750365.99190186337
 40
0.27
  1
-7.040-
 50
-291.00
 41
0.66
  7
STANDARD
 72
0
 11
7539094.51390379108
 21
5750366.08866120968
100
AcDbText
 73
3
  0
TEXT
  5
94
100
AcDbEntity
  8
budynek_obrys
370
5
100
AcDbText
 39
0.05
 10
7539098.14981386159
 20
5750361.6135016745
 40
0.27
  1
-10.670-
 50
-21.00
 41
0.66
  7
STANDARD
 72
0
 11
7539098.2465732079
 21
5750361.86556838918
100
AcDbText
 73
3
  0
TEXT
  5
95
100
AcDbEntity
  8
budynek_obrys
370
5
100
AcDbText
 39
0.05
 10
7539103.99066480715
 20
5750360.25113405287
 40
0.27
  1
-2.940-
 50
-291.00
 41
0.66
  7
STANDARD
 72
0
 11
7539103.73859809246
 21
5750360.34789339919
100
AcDbText
 73
3
  0
TEXT
  5
96
100
AcDbEntity
  8
budynek_obrys
370
5
100
AcDbText
 39
0.05
 10
7539105.77753276098
 20
5750361.83211640082
 40
0.27
  1
-3.280-
 50
-21.00
 41
0.66
  7
STANDARD
 72
0
 11
7539105.8742921073
 21
5750362.08418311551
100
AcDbText
 73
3
  0
TEXT
  5
97
100
AcDbEntity
  8
budynek_obrys
370
5
100
AcDbText
 39
0.05
 10
7539109.44026842713
 20
5750364.03386727348
 40
0.27
  1
-8.260-
 50
-291.00
 41
0.66
  7
STANDARD
 72
0
 11
7539109.18820171244
 21
5750364.13062661979
100
AcDbText
 73
3
  0
TEXT
  5
98
100
AcDbEntity
  8
budynek_obrys
370
5
100
AcDbText
 39
0.05
 10
7539103.11469781585
 20
5750371.70424186066
 40
0.27
  1
-15.200-
 50
-21.00
 41
0.66
  7
STANDARD
 72
0
 11
7539103.21145716216
 21
5750371.95630857535
100
AcDbText
 73
3
  0
TEXT
  5
99
100
AcDbEntity
  8
kontrola
370
5
100
AcDbText
 39
0.05
 10
7539101.50311740208
 20
5750366.82711171359
 40
0.27
  1
-18.881-
 50
-57.00
 41
0.66
  7
STANDARD
 72
0
 11
7539101.72955845576
 21
5750366.9741642531
100
AcDbText
 73
3
  0
TEXT
  5
9A
100
AcDbEntity
  8
kontrola
370
5
100
AcDbText
 39
0.05
 10
7539098.60176084563
 20
5750365.56098573655
 40
0.27
  1
-18.881-
 50
-345.00
 41
0.66
  7
STANDARD
 72
0
 11
7539098.53187970351
 21
5750365.82178570982
100
AcDbText
 73
3
  0
TEXT
  5
9B
100
AcDbEntity
  8
Numery_dzialek
370
20
100
AcDbText
 39
0.20
 10
7539116.69999999832
 20
5750376.5999999987
 40
1.00
  1
265/13
 50
0.00
 41
0.66
  7
STANDARD
 72
0
 11
7539116.69999999832
 21
5750377.5999999987
100
AcDbText
 73
3
  0
TEXT
  5
9C
100
AcDbEntity
  8
Numery_dzialek
370
20
100
AcDbText
 39
0.20
 10
7539107.19999999832
 20
5750341.5999999987
 40
1.00
  1
265/14
 50
0.00
 41
0.66
  7
STANDARD
 72
0
 11
7539107.19999999832
 21
5750342.5999999987
100
AcDbText
 73
3
  0
TEXT
  5
9D
100
AcDbEntity
  8
Numery_dzialek
370
20
100
AcDbText
 39
0.20
 10
7539135.79999999795
 20
5750402.69999999832
 40
1.00
  1
265/26
 50
0.00
 41
0.66
  7
STANDARD
 72
0
 11
7539135.79999999795
 21
5750403.69999999832
100
AcDbText
 73
3
  0
TEXT
  5
9E
100
AcDbEntity
  8
Numery_dzialek
370
20
100
AcDbText
 39
0.20
 10
7539162.29999999795
 20
5750361.39999999851
 40
1.00
  1
266
 50
0.00
 41
0.66
  7
STANDARD
 72
0
 11
7539162.29999999795
 21
5750362.39999999851
100
AcDbText
 73
3
  0
TEXT
  5
9F
100
AcDbEntity
  8
Numery_dzialek
370
20
100
AcDbText
 39
0.20
 10
7539167.89999999851
 20
5750358.29999999888
 40
1.00
  1
267
 50
0.00
 41
0.66
  7
STANDARD
 72
0
 11
7539167.89999999851
 21
5750359.29999999888
100
AcDbText
 73
3
  0
TEXT
  5
A0
100
AcDbEntity
  8
Numery_dzialek
370
20
100
AcDbText
 39
0.20
 10
7539174.79999999795
 20
5750355.49999999907
 40
1.00
  1
268
 50
0.00
 41
0.66
  7
STANDARD
 72
0
 11
7539174.79999999795
 21
5750356.49999999907
100
AcDbText
 73
3
  0
TEXT
  5
A1
100
AcDbEntity
  8
Osie
370
5
100
AcDbText
 39
0.05
 10
7539108.32658315916
 20
5750369.35826257989
 40
0.27
  1
-3.280-
 50
-21.00
 41
0.66
  7
STANDARD
 72
0
 11
7539108.42334250547
 21
5750369.61032929458
100
AcDbText
 73
3
  0
TEXT
  5
A2
100
AcDbEntity
  8
Osie
370
5
100
AcDbText
 39
0.05
 10
7539096.86471773591
 20
5750373.76226102747
 40
0.27
  1
-1.250-
 50
-21.00
 41
0.66
  7
STANDARD
 72
0
 11
7539096.96147708222
 21
5750374.01432774216
100
AcDbText
 73
3
  0
TEXT
  5
A3
100
AcDbEntity
  8
Osie
370
5
100
AcDbText
 39
0.05
 10
7539099.3387177363
 20
5750372.81176102813
 40
0.27
  1
-4.051-
 50
-21.00
 41
0.66
  7
STANDARD
 72
0
 11
7539099.43547708262
 21
5750373.06382774282
100
AcDbText
 73
3
  0
TEXT
  5
A4
100
AcDbEntity
  8
Osie
370
5
100
AcDbText
 39
0.05
 10
7539104.00458315853
 20
5750371.01876257919
 40
0.27
  1
-5.980-
 50
-21.00
 41
0.66
  7
STANDARD
 72
0
 11
7539104.10134250484
 21
5750371.27082929388
100
AcDbText
 73
3
  0
TEXT
  5
A5
100
AcDbEntity
  8
Osie
370
5
100
AcDbText
 39
0.05
 10
7539093.07766687591
 20
5750363.90566563141
 40
0.27
  1
-1.249-
 50
-21.10
 41
0.66
  7
STANDARD
 72
0
 11
7539093.17486601416
 21
5750364.15756308567
100
AcDbText
 73
3
  0
TEXT
  5
A6
100
AcDbEntity
  8
Osie
370
5
100
AcDbText
 39
0.05
 10
7539095.55071773659
 20
5750362.95376102626
 40
0.27
  1
-4.051-
 50
-21.00
 41
0.66
  7
STANDARD
 72
0
 11
7539095.64747708291
 21
5750363.20582774095
100
AcDbText
 73
3
  0
TEXT
  5
A7
100
AcDbEntity
  8
Osie
370
5
100
AcDbText
 39
0.05
 10
7539100.21658315789
 20
5750361.16076257918
 40
0.27
  1
-5.980-
 50
-21.00
 41
0.66
  7
STANDARD
 72
0
 11
7539100.3133425042
 21
5750361.41282929387
100
AcDbText
 73
3
  0
TEXT
  5
A8
100
AcDbEntity
  8
Osie
370
5
100
AcDbText
 39
0.05
 10
7539104.53858315852
 20
5750359.50026257802
 40
0.27
  1
-3.280-
 50
-21.00
 41
0.66
  7
STANDARD
 72
0
 11
7539104.63534250483
 21
5750359.75232929271
100
AcDbText
 73
3
  0
TEXT
  5
A9
100
AcDbEntity
  8
Osie
370
5
100
AcDbText
 39
0.05
 10
7539106.86835508794
 20
5750359.48721914459
 40
0.27
  1
-2.940-
 50
-291.00
 41
0.66
  7
STANDARD
 72
0
 11
7539106.61628837325
 21
5750359.5839784909
100
AcDbText
 73
3
  0
TEXT
  5
AA
100
AcDbEntity
  8
Osie
370
5
100
AcDbText
 39
0.05
 10
7539107.7243566392
 20
5750361.71535372082
 40
0.27
  1
-1.800-
 50
-291.00
 41
0.66
  7
STANDARD
 72
0
 11
7539107.47228992451
 21
5750361.81211306714
100
AcDbText
 73
3
  0
TEXT
  5
AB
100
AcDbEntity
  8
Osie
370
5
100
AcDbText
 39
0.05
 10
7539108.45335508604
 20
5750363.6137191467
 40
0.27
  1
-2.300-
 50
-291.00
 41
0.66
  7
STANDARD
 72
0
 11
7539108.20128837135
 21
5750363.71047849301
100
AcDbText
 73
3
  0
TEXT
  5
AC
100
AcDbEntity
  8
Osie
370
5
100
AcDbText
 39
0.05
 10
7539109.49735508859
 20
5750366.330219144
 40
0.27
  1
-3.520-
 50
-291.00
 41
0.66
  7
STANDARD
 72
0
 11
7539109.2452883739
 21
5750366.42697849032
100
AcDbText
 73
3
  0
TEXT
  5
AD
100
AcDbEntity
  8
Osie
370
5
100
AcDbText
 39
0.05
 10
7539095.91185663734
 20
5750371.56835372094
 40
0.27
  1
-3.519-
 50
-291.00
 41
0.66
  7
STANDARD
 72
0
 11
7539095.65978992265
 21
5750371.66511306725
100
AcDbText
 73
3
  0
TEXT
  5
AE
100
AcDbEntity
  8
Osie
370
5
100
AcDbText
 39
0.05
 10
7539094.86235508695
 20
5750368.83671914414
 40
0.27
  1
-2.300-
 50
-291.00
 41
0.66
  7
STANDARD
 72
0
 11
7539094.61028837226
 21
5750368.93347849045
100
AcDbText
 73
3
  0
TEXT
  5
AF
100
AcDbEntity
  8
Osie
370
5
100
AcDbText
 39
0.05
 10
7539094.13335663732
 20
5750366.93835372105
 40
0.27
  1
-1.800-
 50
-291.00
 41
0.66
  7
STANDARD
 72
0
 11
7539093.88128992263
 21
5750367.03511306737
100
AcDbText
 73
3
  0
TEXT
  5
B0
100
AcDbEntity
  8
Osie
370
5
100
AcDbText
 39
0.05
 10
7539093.27735508792
 20
5750364.71021914668
 40
0.27
  1
-2.940-
 50
-291.00
 41
0.66
  7
STANDARD
 72
0
 11
7539093.02528837323
 21
5750364.806978493
100
AcDbText
 73
3
  0
TEXT
  5
B1
100
AcDbEntity
  8
Osie
370
5
100
AcDbText
 39
0.05
 10
7539101.46647912916
 20
5750365.95459135156
 40
0.27
  1
-17.987-
 50
-57.00
 41
0.66
  7
STANDARD
 72
0
 11
7539101.69292018283
 21
5750366.10164389107
100
AcDbText
 73
3
  0
TEXT
  5
B2
100
AcDbEntity
  8
Osie
370
5
100
AcDbText
 39
0.05
 10
7539100.21728760656
 20
5750365.83876370825
 40
0.27
  1
-17.986-
 50
-345.10
 41
0.66
  7
STANDARD
 72
0
 11
7539100.14786175266
 21
5750366.09968524985
100
AcDbText
 73
3
  0
TEXT
  5
B3
100
AcDbEntity
  8
Osie
370
5
100
AcDbText
 39
0.05
 10
7539092.60274084099
 20
5750363.41737682745
 40
0.27
  1
A
 50
0.00
 41
0.66
  7
STANDARD
 72
0
 11
7539092.60274084099
 21
5750363.687376827
100
AcDbText
 73
3
  0
TEXT
  5
B4
100
AcDbEntity
  8
Osie
370
5
100
AcDbText
 39
0.05
 10
7539096.61274083983
 20
5750373.87737682741
 40
0.27
  1
A
 50
0.00
 41
0.66
  7
STANDARD
 72
0
 11
7539096.61274083983
 21
5750374.14737682696
100
AcDbText
 73
3
  0
TEXT
  5
B5
100
AcDbEntity
  8
Osie
370
5
100
AcDbText
 39
0.05
 10
7539098.12274083588
 20
5750373.86737682205
 40
0.27
  1
B
 50
0.00
 41
0.66
  7
STANDARD
 72
0
 11
7539098.12274083588
 21
5750374.1373768216
100
AcDbText
 73
3
  0
TEXT
  5
B6
100
AcDbEntity
  8
Osie
370
5
100
AcDbText
 39
0.05
 10
7539093.85274083633
 20
5750362.44737682305
 40
0.27
  1
B
 50
0.00
 41
0.66
  7
STANDARD
 72
0
 11
7539093.85274083633
 21
5750362.71737682261
100
AcDbText
 73
3
  0
TEXT
  5
B7
100
AcDbEntity
  8
Osie
370
5
100
AcDbText
 39
0.05
 10
7539097.6427408373
 20
5750361.13737682346
 40
0.27
  1
C
 50
0.00
 41
0.66
  7
STANDARD
 72
0
 11
7539097.6427408373
 21
5750361.40737682302
100
AcDbText
 73
3
  0
TEXT
  5
B8
100
AcDbEntity
  8
Osie
370
5
100
AcDbText
 39
0.05
 10
7539101.81274083629
 20
5750372.50737682264
 40
0.27
  1
C
 50
0.00
 41
0.66
  7
STANDARD
 72
0
 11
7539101.81274083629
 21
5750372.7773768222
100
AcDbText
 73
3
  0
TEXT
  5
B9
100
AcDbEntity
  8
Osie
370
5
100
AcDbText
 39
0.05
 10
7539107.59274083562
 20
5750370.35737682227
 40
0.27
  1
D
 50
0.00
 41
0.66
  7
STANDARD
 72
0
 11
7539107.59274083562
 21
5750370.62737682182
100
AcDbText
 73
3
  0
TEXT
  5
BA
100
AcDbEntity
  8
Osie
370
5
100
AcDbText
 39
0.05
 10
7539103.31274083629
 20
5750358.87737682462
 40
0.27
  1
D
 50
0.00
 41
0.66
  7
STANDARD
 72
0
 11
7539103.31274083629
 21
5750359.14737682417
100
AcDbText
 73
3
  0
TEXT
  5
BB
100
AcDbEntity
  8
Osie
370
5
100
AcDbText
 39
0.05
 10
7539110.55274083465
 20
5750369.22737682331
 40
0.27
  1
E
 50
0.00
 41
0.66
  7
STANDARD
 72
0
 11
7539110.55274083465
 21
5750369.49737682287
100
AcDbText
 73
3
  0
TEXT
  5
BC
100
AcDbEntity
  8
Osie
370
5
100
AcDbText
 39
0.05
 10
7539106.18274083734
 20
5750357.81737682223
 40
0.27
  1
E
 50
0.00
 41
0.66
  7
STANDARD
 72
0
 11
7539106.18274083734
 21
5750358.08737682179
100
AcDbText
 73
3
  0
TEXT
  5
BD
100
AcDbEntity
  8
Osie
370
5
100
AcDbText
 39
0.05
 10
7539095.78274083603
 20
5750373.79737682361
 40
0.27
  1
1
 50
0.00
 41
0.66
  7
STANDARD
 72
0
 11
7539095.78274083603
 21
5750374.06737682316
100
AcDbText
 73
3
  0
TEXT
  5
BE
100
AcDbEntity
  8
Osie
370
5
100
AcDbText
 39
0.05
 10
7539111.07274083607
 20
5750367.97737682238
 40
0.27
  1
1
 50
0.00
 41
0.66
  7
STANDARD
 72
0
 11
7539111.07274083607
 21
5750368.24737682194
100
AcDbText
 73
3
  0
TEXT
  5
BF
100
AcDbEntity
  8
Osie
370
5
100
AcDbText
 39
0.05
 10
7539094.65274083614
 20
5750370.64737682324
 40
0.27
  1
2
 50
0.00
 41
0.66
  7
STANDARD
 72
0
 11
7539094.65274083614
 21
5750370.91737682279
100
AcDbText
 73
3
  0
TEXT
  5
C0
100
AcDbEntity
  8
Osie
370
5
100
AcDbText
 39
0.05
 10
7539110.02274083626
 20
5750364.77737682313
 40
0.27
  1
2
 50
0.00
 41
0.66
  7
STANDARD
 72
0
 11
7539110.02274083626
 21
5750365.04737682268
100
AcDbText
 73
3
  0
TEXT
  5
C1
100
AcDbEntity
  8
Osie
370
5
100
AcDbText
 39
0.05
 10
7539094.00274083577
 20
5750368.37737682462
 40
0.27
  1
3
 50
0.00
 41
0.66
  7
STANDARD
 72
0
 11
7539094.00274083577
 21
5750368.64737682417
100
AcDbText
 73
3
  0
TEXT
  5
C2
100
AcDbEntity
  8
Osie
370
5
100
AcDbText
 39
0.05
 10
7539108.77274083626
 20
5750362.83737682458
 40
0.27
  1
3
 50
0.00
 41
0.66
  7
STANDARD
 72
0
 11
7539108.77274083626
 21
5750363.10737682413
100
AcDbText
 73
3
  0
TEXT
  5
C3
100
AcDbEntity
  8
Osie
370
5
100
AcDbText
 39
0.05
 10
7539093.44274083618
 20
5750366.59737682342
 40
0.27
  1
4
 50
0.00
 41
0.66
  7
STANDARD
 72
0
 11
7539093.44274083618
 21
5750366.86737682298
100
AcDbText
 73
3
  0
TEXT
  5
C4
100
AcDbEntity
  8
Osie
370
5
100
AcDbText
 39
0.05
 10
7539108.20274083689
 20
5750361.05737682339
 40
0.27
  1
4
 50
0.00
 41
0.66
  7
STANDARD
 72
0
 11
7539108.20274083689
 21
5750361.32737682294
100
AcDbText
 73
3
  0
TEXT
  5
C5
100
AcDbEntity
  8
Osie
370
5
100
AcDbText
 39
0.05
 10
7539092.3927408373
 20
5750364.00737682357
 40
0.27
  1
5
 50
0.00
 41
0.66
  7
STANDARD
 72
0
 11
7539092.3927408373
 21
5750364.27737682313
100
AcDbText
 73
3
  0
TEXT
  5
C6
100
AcDbEntity
  8
Osie
370
5
100
AcDbText
 39
0.05
 10
7539107.15274083614
 20
5750358.34737682343
 40
0.27
  1
5
 50
0.00
 41
0.66
  7
STANDARD
 72
0
 11
7539107.15274083614
 21
5750358.61737682298
100
AcDbText
 73
3
  0
ENDSEC
  0
SECTION
  2
OBJECTS
  0
DICTIONARY
  5
C7
330
0
100
AcDbDictionary
280
0
281
1
  3
ACAD_GROUP
350
C8
  3
ACAD_LAYOUT
350
C9
  3
ACAD_MLINESTYLE
350
CA
  3
ACAD_PLOTSETTINGS
350
CB
  3
ACAD_PLOTSTYLENAME
350
CC
  0
DICTIONARY
  5
C8
102
{ACAD_REACTORS
330
C7
102
}
330
C7
100
AcDbDictionary
280
0
281
1
  0
DICTIONARY
  5
C9
102
{ACAD_REACTORS
330
C7
102
}
330
C7
100
AcDbDictionary
280
0
281
1
  3
Layout
350
1E
  3
Model
350
1C
  0
DICTIONARY
  5
CA
102
{ACAD_REACTORS
330
C7
102
}
330
C7
100
AcDbDictionary
280
0
281
1
  3
Standard
350
CD
  0
DICTIONARY
  5
CB
102
{ACAD_REACTORS
330
C7
102
}
330
C7
100
AcDbDictionary
280
0
281
1
  0
ACDBDICTIONARYWDFLT
  5
CC
102
{ACAD_REACTORS
330
C7
102
}
330
C7
100
AcDbDictionary
281
1
  3
Normal
350
B
100
AcDbDictionaryWithDefault
340
B
  0
LAYOUT
  5
1E
100
AcDbPlotSettings
  1

  2

  4

  6

 40
0.0
 41
0.0
 42
0.0
 43
0.0
 44
0.0
 45
0.0
 46
0.0
 47
0.0
 48
0.0
 49
0.0
140
0.0
141
0.0
142
1.0
143
1.0
 70
688
 72
1
 73
0
 74
5
  7

 75
0
147
1.0
148
0.0
149
0.0
100
AcDbLayout
  1
Layout
 70
1
 71
1
 10
0.0
 20
0.0
 11
420.0
 21
297.0
 12
0.0
 22
0.0
 32
0.0
 14
100000000000000000000.0
 24
100000000000000000000.0
 34
100000000000000000000.0
 15
-100000000000000000000.0
 25
-100000000000000000000.0
 35
-100000000000000000000.0
146
0.0
 13
0.0
 23
0.0
 33
0.0
 16
1.0
 26
0.0
 36
0.0
 17
0.0
 27
1.0
 37
0.0
 76
0
330
1D
  0
LAYOUT
  5
1C
100
AcDbPlotSettings
  1

  2

  4

  6

 40
0.0
 41
0.0
 42
0.0
 43
0.0
 44
0.0
 45
0.0
 46
0.0
 47
0.0
 48
0.0
 49
0.0
140
0.0
141
0.0
142
1.0
143
1.0
 70
1712
 72
1
 73
0
 74
0
  7

 75
0
147
1.0
148
0.0
149
0.0
100
AcDbLayout
  1
Model
 70
1
 71
0
 10
0.0
 20
0.0
 11
12.0
 21
9.0
 12
0.0
 22
0.0
 32
0.0
 14
0.0
 24
0.0
 34
0.0
 15
0.0
 25
0.0
 35
0.0
146
0.0
 13
0.0
 23
0.0
 33
0.0
 16
1.0
 26
0.0
 36
0.0
 17
0.0
 27
1.0
 37
0.0
 76
0
330
1B
  0
MLINESTYLE
  5
CD
102
{ACAD_REACTORS
330
CA
102
}
330
CA
100
AcDbMlineStyle
  2
Standard
 70
0
  3

 62
256
 51
90.0
 52
90.0
  2
Standard
 71
2
 49
0.5
 62
256
  6
ByLayer
 49
-0.5
 62
256
  6
ByLayer
  0
ACDBPLACEHOLDER
  5
B
  0
ENDSEC
  0
EOF
